ISO-10303-21;
HEADER;
FILE_DESCRIPTION (( 'STEP AP203' ),
    '1' );
FILE_NAME ('BK7-NPBSC-12.7-1200-1600.STEP',
    '2020-12-22T02:10:33',
    ( '' ),
    ( '' ),
    'SwSTEP 2.0',
    'SolidWorks 2020',
    '' );
FILE_SCHEMA (( 'CONFIG_CONTROL_DESIGN' ));
ENDSEC;

DATA;
#1 = FACE_OUTER_BOUND ( 'NONE', #105, .T. ) ;
#2 = APPLICATION_PROTOCOL_DEFINITION ( 'international standard', 'config_control_design', 1994, #153 ) ;
#3 = ORIENTED_EDGE ( 'NONE', *, *, #276, .T. ) ;
#4 = ORIENTED_EDGE ( 'NONE', *, *, #117, .F. ) ;
#5 = DIRECTION ( 'NONE',  ( -2.220446049250312588E-16, 1.000000000000000000, 0.000000000000000000 ) ) ;
#6 = CC_DESIGN_APPROVAL ( #113, ( #83 ) ) ;
#7 = CARTESIAN_POINT ( 'NONE',  ( 0.000000000000000000, 0.000000000000000000, -6.349999999999999645 ) ) ;
#8 = ADVANCED_FACE ( 'NONE', ( #312 ), #188, .F. ) ;
#9 = LINE ( 'NONE', #277, #49 ) ;
#10 = DIRECTION ( 'NONE',  ( 0.7071067811865475727, 0.7071067811865475727, 0.000000000000000000 ) ) ;
#11 = CARTESIAN_POINT ( 'NONE',  ( 6.349999999999996980, 6.349999999999996980, -6.349999999999999645 ) ) ;
#12 = ORIENTED_EDGE ( 'NONE', *, *, #144, .T. ) ;
#13 = VERTEX_POINT ( 'NONE', #91 ) ;
#14 = CARTESIAN_POINT ( 'NONE',  ( -6.349999999999999645, -6.350000000000000533, 6.349999999999999645 ) ) ;
#15 = DIRECTION ( 'NONE',  ( 0.000000000000000000, 0.000000000000000000, 1.000000000000000000 ) ) ;
#16 = UNCERTAINTY_MEASURE_WITH_UNIT (LENGTH_MEASURE( 1.000000000000000082E-05 ), #272, 'distance_accuracy_value', 'NONE');
#17 = LINE ( 'NONE', #172, #102 ) ;
#18 = ADVANCED_FACE ( 'NONE', ( #90 ), #185, .T. ) ;
#19 = SHAPE_DEFINITION_REPRESENTATION ( #301, #39 ) ;
#20 = PLANE ( 'NONE',  #294 ) ;
#21 = DIRECTION ( 'NONE',  ( 0.000000000000000000, 0.000000000000000000, -1.000000000000000000 ) ) ;
#22 = DIRECTION ( 'NONE',  ( 0.000000000000000000, 0.000000000000000000, 1.000000000000000000 ) ) ;
#23 = ADVANCED_FACE ( 'NONE', ( #94 ), #241, .F. ) ;
#24 = PERSON_AND_ORGANIZATION_ROLE ( 'creator' ) ;
#25 = DATE_AND_TIME ( #54, #37 ) ;
#26 = EDGE_CURVE ( 'NONE', #151, #139, #286, .T. ) ;
#27 = APPROVAL_ROLE ( '' ) ;
#28 = ORIENTED_EDGE ( 'NONE', *, *, #212, .F. ) ;
#29 = DESIGN_CONTEXT ( 'detailed design', #46, 'design' ) ;
#30 = DIRECTION ( 'NONE',  ( 6.829619984160658046E-17, -1.000000000000000000, 0.000000000000000000 ) ) ;
#31 = AXIS2_PLACEMENT_3D ( 'NONE', #14, #89, #184 ) ;
#32 = EDGE_CURVE ( 'NONE', #139, #85, #161, .T. ) ;
#33 = LINE ( 'NONE', #167, #200 ) ;
#34 = FACE_OUTER_BOUND ( 'NONE', #93, .T. ) ;
#35 = EDGE_LOOP ( 'NONE', ( #127, #264, #63, #214 ) ) ;
#36 = ADVANCED_FACE ( 'NONE', ( #162 ), #267, .F. ) ;
#37 = LOCAL_TIME ( 10, 10, 33.00000000000000000, #223 ) ;
#38 = ORIENTED_EDGE ( 'NONE', *, *, #282, .F. ) ;
#39 = ADVANCED_BREP_SHAPE_REPRESENTATION ( 'BK7-NPBSC-12.7-1200-1600', ( #168, #279, #119 ), #55 ) ;
#40 = SECURITY_CLASSIFICATION_LEVEL ( 'unclassified' ) ;
#41 = LINE ( 'NONE', #230, #101 ) ;
#42 = VECTOR ( 'NONE', #284, 1000.000000000000000 ) ;
#43 = EDGE_CURVE ( 'NONE', #238, #211, #309, .T. ) ;
#44 = ORIENTED_EDGE ( 'NONE', *, *, #26, .T. ) ;
#45 = LINE ( 'NONE', #278, #243 ) ;
#46 = APPLICATION_CONTEXT ( 'configuration controlled 3d designs of mechanical parts and assemblies' ) ;
#47 = CARTESIAN_POINT ( 'NONE',  ( 6.349999999999998757, 6.349999999999998757, 6.349999999999999645 ) ) ;
#48 = PERSON_AND_ORGANIZATION_ROLE ( 'classification_officer' ) ;
#49 = VECTOR ( 'NONE', #159, 1000.000000000000000 ) ;
#50 = CALENDAR_DATE ( 2020, 22, 12 ) ;
#51 = CARTESIAN_POINT ( 'NONE',  ( 0.000000000000000000, 0.000000000000000000, 0.000000000000000000 ) ) ;
#52 = APPROVAL_DATE_TIME ( #222, #66 ) ;
#53 = VECTOR ( 'NONE', #181, 1000.000000000000000 ) ;
#54 = CALENDAR_DATE ( 2020, 22, 12 ) ;
#55 =( GEOMETRIC_REPRESENTATION_CONTEXT ( 3 ) GLOBAL_UNCERTAINTY_ASSIGNED_CONTEXT ( ( #16 ) ) GLOBAL_UNIT_ASSIGNED_CONTEXT ( ( #272, #295, #73 ) ) REPRESENTATION_CONTEXT ( 'NONE', 'WORKASPACE' ) );
#56 = LINE ( 'NONE', #154, #118 ) ;
#57 = ORIENTED_EDGE ( 'NONE', *, *, #117, .T. ) ;
#58 = FACE_OUTER_BOUND ( 'NONE', #229, .T. ) ;
#59 = DIRECTION ( 'NONE',  ( -6.829619984160658046E-17, 1.000000000000000000, -0.000000000000000000 ) ) ;
#60 = EDGE_LOOP ( 'NONE', ( #256, #213, #304 ) ) ;
#61 = CC_DESIGN_DATE_AND_TIME_ASSIGNMENT ( #170, #145, ( #83 ) ) ;
#62 = ORIENTED_EDGE ( 'NONE', *, *, #293, .F. ) ;
#63 = ORIENTED_EDGE ( 'NONE', *, *, #250, .T. ) ;
#64 = ORIENTED_EDGE ( 'NONE', *, *, #98, .T. ) ;
#65 = LINE ( 'NONE', #280, #82 ) ;
#66 = APPROVAL ( #174, 'UNSPECIFIED' ) ;
#67 = DIRECTION ( 'NONE',  ( 1.000000000000000000, 0.000000000000000000, 0.000000000000000000 ) ) ;
#68 = CARTESIAN_POINT ( 'NONE',  ( -6.349999999999999645, -6.350000000000000533, 6.349999999999999645 ) ) ;
#69 = APPROVAL_STATUS ( 'not_yet_approved' ) ;
#70 = LINE ( 'NONE', #143, #281 ) ;
#71 = PERSON_AND_ORGANIZATION ( #169, #97 ) ;
#72 = VECTOR ( 'NONE', #291, 1000.000000000000000 ) ;
#73 =( NAMED_UNIT ( * ) SI_UNIT ( $, .STERADIAN. ) SOLID_ANGLE_UNIT ( ) );
#74 = CARTESIAN_POINT ( 'NONE',  ( -6.349999999999998757, -6.349999999999997868, 6.349999999999999645 ) ) ;
#75 = EDGE_CURVE ( 'NONE', #131, #226, #114, .T. ) ;
#76 = PERSON_AND_ORGANIZATION ( #169, #97 ) ;
#77 = LINE ( 'NONE', #115, #204 ) ;
#78 = PERSON_AND_ORGANIZATION ( #169, #97 ) ;
#79 = MECHANICAL_CONTEXT ( 'NONE', #153, 'mechanical' ) ;
#80 = PERSON_AND_ORGANIZATION ( #169, #97 ) ;
#81 = ORIENTED_EDGE ( 'NONE', *, *, #138, .T. ) ;
#82 = VECTOR ( 'NONE', #189, 1000.000000000000000 ) ;
#83 = SECURITY_CLASSIFICATION ( '', '', #40 ) ;
#84 = PRODUCT ( 'BK7-NPBSC-12.7-1200-1600', 'BK7-NPBSC-12.7-1200-1600', '', ( #79 ) ) ;
#85 = VERTEX_POINT ( 'NONE', #183 ) ;
#86 = LINE ( 'NONE', #266, #92 ) ;
#87 = ORIENTED_EDGE ( 'NONE', *, *, #250, .F. ) ;
#88 = DIRECTION ( 'NONE',  ( -0.000000000000000000, -0.000000000000000000, -1.000000000000000000 ) ) ;
#89 = DIRECTION ( 'NONE',  ( 0.000000000000000000, 1.000000000000000000, 0.000000000000000000 ) ) ;
#90 = FACE_OUTER_BOUND ( 'NONE', #129, .T. ) ;
#91 = CARTESIAN_POINT ( 'NONE',  ( 6.349999999999998757, 6.349999999999998757, 6.349999999999999645 ) ) ;
#92 = VECTOR ( 'NONE', #59, 1000.000000000000000 ) ;
#93 = EDGE_LOOP ( 'NONE', ( #202, #275, #4, #133 ) ) ;
#94 = FACE_OUTER_BOUND ( 'NONE', #137, .T. ) ;
#95 = LINE ( 'NONE', #318, #157 ) ;
#96 = AXIS2_PLACEMENT_3D ( 'NONE', #234, #283, #10 ) ;
#97 = ORGANIZATION ( 'UNSPECIFIED', 'UNSPECIFIED', '' ) ;
#98 = EDGE_CURVE ( 'NONE', #13, #228, #9, .T. ) ;
#99 = DIRECTION ( 'NONE',  ( 1.000000000000000000, -2.220446049250312588E-16, 0.000000000000000000 ) ) ;
#100 = APPROVAL_ROLE ( '' ) ;
#101 = VECTOR ( 'NONE', #140, 1000.000000000000114 ) ;
#102 = VECTOR ( 'NONE', #195, 999.9999999999998863 ) ;
#103 = PERSON_AND_ORGANIZATION ( #169, #97 ) ;
#104 = ORIENTED_EDGE ( 'NONE', *, *, #276, .F. ) ;
#105 = EDGE_LOOP ( 'NONE', ( #12, #308, #28, #64 ) ) ;
#106 = CARTESIAN_POINT ( 'NONE',  ( 6.349999999999999645, -6.350000000000000533, 6.349999999999999645 ) ) ;
#107 = CARTESIAN_POINT ( 'NONE',  ( 6.349999999999996980, 6.349999999999996980, 6.349999999999999645 ) ) ;
#108 = CLOSED_SHELL ( 'NONE', ( #36, #271, #289, #18, #224 ) ) ;
#109 = CARTESIAN_POINT ( 'NONE',  ( 6.349999999999996980, 6.349999999999996980, -6.349999999999999645 ) ) ;
#110 = CARTESIAN_POINT ( 'NONE',  ( 0.000000000000000000, 0.000000000000000000, -6.349999999999999645 ) ) ;
#111 = VERTEX_POINT ( 'NONE', #106 ) ;
#112 = AXIS2_PLACEMENT_3D ( 'NONE', #233, #307, #30 ) ;
#113 = APPROVAL ( #69, 'UNSPECIFIED' ) ;
#114 = LINE ( 'NONE', #203, #319 ) ;
#115 = CARTESIAN_POINT ( 'NONE',  ( -6.350000000000002309, 6.350000000000001421, 6.349999999999999645 ) ) ;
#116 = COORDINATED_UNIVERSAL_TIME_OFFSET ( 8, 0, .AHEAD. ) ;
#117 = EDGE_CURVE ( 'NONE', #111, #13, #86, .T. ) ;
#118 = VECTOR ( 'NONE', #259, 1000.000000000000114 ) ;
#119 = AXIS2_PLACEMENT_3D ( 'NONE', #51, #22, #225 ) ;
#120 = LINE ( 'NONE', #297, #72 ) ;
#121 = PERSON_AND_ORGANIZATION_ROLE ( 'design_owner' ) ;
#122 = EDGE_CURVE ( 'NONE', #111, #237, #311, .T. ) ;
#123 = APPLICATION_PROTOCOL_DEFINITION ( 'international standard', 'config_control_design', 1994, #46 ) ;
#124 = APPROVAL_DATE_TIME ( #25, #314 ) ;
#125 = DATE_AND_TIME ( #273, #163 ) ;
#126 = ORIENTED_EDGE ( 'NONE', *, *, #122, .F. ) ;
#127 = ORIENTED_EDGE ( 'NONE', *, *, #32, .F. ) ;
#128 = LINE ( 'NONE', #109, #299 ) ;
#129 = EDGE_LOOP ( 'NONE', ( #104, #232, #87 ) ) ;
#130 = DIRECTION ( 'NONE',  ( -0.000000000000000000, 0.000000000000000000, 1.000000000000000000 ) ) ;
#131 = VERTEX_POINT ( 'NONE', #316 ) ;
#132 = CARTESIAN_POINT ( 'NONE',  ( -6.349999999999999645, -6.350000000000000533, 6.349999999999999645 ) ) ;
#133 = ORIENTED_EDGE ( 'NONE', *, *, #122, .T. ) ;
#134 = AXIS2_PLACEMENT_3D ( 'NONE', #310, #265, #186 ) ;
#135 = ORIENTED_EDGE ( 'NONE', *, *, #205, .F. ) ;
#136 = AXIS2_PLACEMENT_3D ( 'NONE', #198, #173, #296 ) ;
#137 = EDGE_LOOP ( 'NONE', ( #252, #126, #62, #158 ) ) ;
#138 = EDGE_CURVE ( 'NONE', #226, #178, #65, .T. ) ;
#139 = VERTEX_POINT ( 'NONE', #179 ) ;
#140 = DIRECTION ( 'NONE',  ( -0.7071067811865474617, -0.7071067811865474617, 0.000000000000000000 ) ) ;
#141 = FACE_OUTER_BOUND ( 'NONE', #60, .T. ) ;
#142 = APPROVAL_ROLE ( '' ) ;
#143 = CARTESIAN_POINT ( 'NONE',  ( 6.349999999999996980, 6.349999999999996980, -6.349999999999999645 ) ) ;
#144 = EDGE_CURVE ( 'NONE', #228, #211, #56, .T. ) ;
#145 = DATE_TIME_ROLE ( 'classification_date' ) ;
#146 = FACE_OUTER_BOUND ( 'NONE', #253, .T. ) ;
#147 = LOCAL_TIME ( 10, 10, 33.00000000000000000, #239 ) ;
#148 = COORDINATED_UNIVERSAL_TIME_OFFSET ( 8, 0, .AHEAD. ) ;
#149 = PERSON_AND_ORGANIZATION_ROLE ( 'design_supplier' ) ;
#150 = AXIS2_PLACEMENT_3D ( 'NONE', #74, #99, #321 ) ;
#151 = VERTEX_POINT ( 'NONE', #207 ) ;
#152 = ADVANCED_FACE ( 'NONE', ( #34 ), #254, .F. ) ;
#153 = APPLICATION_CONTEXT ( 'configuration controlled 3d designs of mechanical parts and assemblies' ) ;
#154 = CARTESIAN_POINT ( 'NONE',  ( 6.349999999999998757, 6.349999999999998757, -6.349999999999999645 ) ) ;
#155 = ORIENTED_EDGE ( 'NONE', *, *, #298, .F. ) ;
#156 = PLANE ( 'NONE',  #197 ) ;
#157 = VECTOR ( 'NONE', #246, 1000.000000000000000 ) ;
#158 = ORIENTED_EDGE ( 'NONE', *, *, #43, .T. ) ;
#159 = DIRECTION ( 'NONE',  ( -0.000000000000000000, -0.000000000000000000, -1.000000000000000000 ) ) ;
#160 = EDGE_LOOP ( 'NONE', ( #135, #313, #3, #44 ) ) ;
#161 = LINE ( 'NONE', #261, #285 ) ;
#162 = FACE_OUTER_BOUND ( 'NONE', #160, .T. ) ;
#163 = LOCAL_TIME ( 10, 10, 33.00000000000000000, #148 ) ;
#164 = CC_DESIGN_PERSON_AND_ORGANIZATION_ASSIGNMENT ( #78, #149, ( #248 ) ) ;
#165 = CARTESIAN_POINT ( 'NONE',  ( -6.349999999999999645, -6.350000000000000533, -6.349999999999999645 ) ) ;
#166 = CARTESIAN_POINT ( 'NONE',  ( -6.349999999999998757, -6.349999999999997868, 6.349999999999999645 ) ) ;
#167 = CARTESIAN_POINT ( 'NONE',  ( 6.349999999999998757, 6.349999999999998757, -6.349999999999999645 ) ) ;
#168 = MANIFOLD_SOLID_BREP ( 'Í¹Ì¨-À', #187 ) ;
#169 = PERSON ( 'UNSPECIFIED', 'UNSPECIFIED', 'UNSPECIFIED', ('UNSPECIFIED'), ('UNSPECIFIED'), ('UNSPECIFIED') ) ;
#170 = DATE_AND_TIME ( #245, #305 ) ;
#171 = DIRECTION ( 'NONE',  ( 0.7071067811865474617, 0.7071067811865474617, 0.000000000000000000 ) ) ;
#172 = CARTESIAN_POINT ( 'NONE',  ( 6.349999999999996980, 6.349999999999996980, 6.349999999999999645 ) ) ;
#173 = DIRECTION ( 'NONE',  ( -2.903408047666378392E-16, -1.000000000000000000, 0.000000000000000000 ) ) ;
#174 = APPROVAL_STATUS ( 'not_yet_approved' ) ;
#175 = PERSON_AND_ORGANIZATION ( #169, #97 ) ;
#176 = CC_DESIGN_PERSON_AND_ORGANIZATION_ASSIGNMENT ( #80, #249, ( #248 ) ) ;
#177 = APPROVAL_PERSON_ORGANIZATION ( #76, #314, #100 ) ;
#178 = VERTEX_POINT ( 'NONE', #11 ) ;
#179 = CARTESIAN_POINT ( 'NONE',  ( -6.349999999999998757, -6.349999999999997868, -6.349999999999999645 ) ) ;
#180 = CC_DESIGN_PERSON_AND_ORGANIZATION_ASSIGNMENT ( #300, #24, ( #231 ) ) ;
#181 = DIRECTION ( 'NONE',  ( -0.000000000000000000, -0.000000000000000000, -1.000000000000000000 ) ) ;
#182 = EDGE_LOOP ( 'NONE', ( #258, #191, #155 ) ) ;
#183 = CARTESIAN_POINT ( 'NONE',  ( -6.350000000000002309, 6.350000000000001421, -6.349999999999999645 ) ) ;
#184 = DIRECTION ( 'NONE',  ( 0.000000000000000000, -0.000000000000000000, 1.000000000000000000 ) ) ;
#185 = PLANE ( 'NONE',  #134 ) ;
#186 = DIRECTION ( 'NONE',  ( -2.220446049250312588E-16, 1.000000000000000000, 0.000000000000000000 ) ) ;
#187 = CLOSED_SHELL ( 'NONE', ( #303, #23, #152, #260, #8 ) ) ;
#188 = PLANE ( 'NONE',  #196 ) ;
#189 = DIRECTION ( 'NONE',  ( 0.000000000000000000, 0.000000000000000000, -1.000000000000000000 ) ) ;
#190 = CC_DESIGN_SECURITY_CLASSIFICATION ( #83, ( #248 ) ) ;
#191 = ORIENTED_EDGE ( 'NONE', *, *, #240, .F. ) ;
#192 = CARTESIAN_POINT ( 'NONE',  ( 6.349999999999999645, -6.350000000000000533, -6.349999999999999645 ) ) ;
#193 = CC_DESIGN_PERSON_AND_ORGANIZATION_ASSIGNMENT ( #71, #48, ( #83 ) ) ;
#194 = APPROVAL_DATE_TIME ( #270, #113 ) ;
#195 = DIRECTION ( 'NONE',  ( -0.7071067811865475727, -0.7071067811865475727, 0.000000000000000000 ) ) ;
#196 = AXIS2_PLACEMENT_3D ( 'NONE', #110, #288, #67 ) ;
#197 = AXIS2_PLACEMENT_3D ( 'NONE', #257, #130, #247 ) ;
#198 = CARTESIAN_POINT ( 'NONE',  ( 6.349999999999996980, 6.349999999999996980, 6.349999999999999645 ) ) ;
#199 = PLANE ( 'NONE',  #150 ) ;
#200 = VECTOR ( 'NONE', #268, 1000.000000000000000 ) ;
#201 = COORDINATED_UNIVERSAL_TIME_OFFSET ( 8, 0, .AHEAD. ) ;
#202 = ORIENTED_EDGE ( 'NONE', *, *, #240, .T. ) ;
#203 = CARTESIAN_POINT ( 'NONE',  ( 6.349999999999996980, 6.349999999999996980, 6.349999999999999645 ) ) ;
#204 = VECTOR ( 'NONE', #21, 1000.000000000000000 ) ;
#205 = EDGE_CURVE ( 'NONE', #178, #139, #128, .T. ) ;
#206 = CARTESIAN_POINT ( 'NONE',  ( 6.349999999999998757, 6.349999999999998757, -6.349999999999999645 ) ) ;
#207 = CARTESIAN_POINT ( 'NONE',  ( -6.349999999999998757, -6.349999999999997868, 6.349999999999999645 ) ) ;
#208 = ORIENTED_EDGE ( 'NONE', *, *, #75, .T. ) ;
#209 = DIRECTION ( 'NONE',  ( -0.7071067811865475727, -0.7071067811865475727, 0.000000000000000000 ) ) ;
#210 = AXIS2_PLACEMENT_3D ( 'NONE', #7, #15, #290 ) ;
#211 = VERTEX_POINT ( 'NONE', #165 ) ;
#212 = EDGE_CURVE ( 'NONE', #13, #238, #41, .T. ) ;
#213 = ORIENTED_EDGE ( 'NONE', *, *, #32, .T. ) ;
#214 = ORIENTED_EDGE ( 'NONE', *, *, #282, .T. ) ;
#215 = VECTOR ( 'NONE', #88, 1000.000000000000000 ) ;
#216 = CARTESIAN_POINT ( 'NONE',  ( 6.349999999999999645, -6.350000000000000533, 6.349999999999999645 ) ) ;
#217 = FACE_OUTER_BOUND ( 'NONE', #35, .T. ) ;
#218 = CALENDAR_DATE ( 2020, 22, 12 ) ;
#219 = PLANE ( 'NONE',  #136 ) ;
#220 = CC_DESIGN_APPROVAL ( #314, ( #248 ) ) ;
#221 = CC_DESIGN_DATE_AND_TIME_ASSIGNMENT ( #125, #227, ( #231 ) ) ;
#222 = DATE_AND_TIME ( #50, #320 ) ;
#223 = COORDINATED_UNIVERSAL_TIME_OFFSET ( 8, 0, .AHEAD. ) ;
#224 = ADVANCED_FACE ( 'NONE', ( #141 ), #242, .F. ) ;
#225 = DIRECTION ( 'NONE',  ( 1.000000000000000000, 0.000000000000000000, 0.000000000000000000 ) ) ;
#226 = VERTEX_POINT ( 'NONE', #107 ) ;
#227 = DATE_TIME_ROLE ( 'creation_date' ) ;
#228 = VERTEX_POINT ( 'NONE', #206 ) ;
#229 = EDGE_LOOP ( 'NONE', ( #302, #315, #57 ) ) ;
#230 = CARTESIAN_POINT ( 'NONE',  ( 6.349999999999998757, 6.349999999999998757, 6.349999999999999645 ) ) ;
#231 = PRODUCT_DEFINITION ( 'UNKNOWN', '', #248, #29 ) ;
#232 = ORIENTED_EDGE ( 'NONE', *, *, #75, .F. ) ;
#233 = CARTESIAN_POINT ( 'NONE',  ( 6.349999999999998757, 6.349999999999998757, 6.349999999999999645 ) ) ;
#234 = CARTESIAN_POINT ( 'NONE',  ( 6.349999999999996980, 6.349999999999996980, 6.349999999999999645 ) ) ;
#235 = ORIENTED_EDGE ( 'NONE', *, *, #317, .F. ) ;
#236 = CC_DESIGN_PERSON_AND_ORGANIZATION_ASSIGNMENT ( #103, #121, ( #84 ) ) ;
#237 = VERTEX_POINT ( 'NONE', #192 ) ;
#238 = VERTEX_POINT ( 'NONE', #68 ) ;
#239 = COORDINATED_UNIVERSAL_TIME_OFFSET ( 8, 0, .AHEAD. ) ;
#240 = EDGE_CURVE ( 'NONE', #237, #228, #33, .T. ) ;
#241 = PLANE ( 'NONE',  #31 ) ;
#242 = PLANE ( 'NONE',  #210 ) ;
#243 = VECTOR ( 'NONE', #5, 1000.000000000000000 ) ;
#244 = DIRECTION ( 'NONE',  ( 0.7071067811865475727, -0.7071067811865475727, 0.000000000000000000 ) ) ;
#245 = CALENDAR_DATE ( 2020, 22, 12 ) ;
#246 = DIRECTION ( 'NONE',  ( 1.000000000000000000, 0.000000000000000000, 0.000000000000000000 ) ) ;
#247 = DIRECTION ( 'NONE',  ( 1.000000000000000000, 0.000000000000000000, 0.000000000000000000 ) ) ;
#248 = PRODUCT_DEFINITION_FORMATION_WITH_SPECIFIED_SOURCE ( 'ANY', '', #84, .NOT_KNOWN. ) ;
#249 = PERSON_AND_ORGANIZATION_ROLE ( 'creator' ) ;
#250 = EDGE_CURVE ( 'NONE', #151, #131, #45, .T. ) ;
#251 = APPROVAL_STATUS ( 'not_yet_approved' ) ;
#252 = ORIENTED_EDGE ( 'NONE', *, *, #298, .T. ) ;
#253 = EDGE_LOOP ( 'NONE', ( #235, #38, #208, #81 ) ) ;
#254 = PLANE ( 'NONE',  #112 ) ;
#255 = PRODUCT_RELATED_PRODUCT_CATEGORY ( 'detail', '', ( #84 ) ) ;
#256 = ORIENTED_EDGE ( 'NONE', *, *, #205, .T. ) ;
#257 = CARTESIAN_POINT ( 'NONE',  ( 0.000000000000000000, 0.000000000000000000, 6.349999999999999645 ) ) ;
#258 = ORIENTED_EDGE ( 'NONE', *, *, #144, .F. ) ;
#259 = DIRECTION ( 'NONE',  ( -0.7071067811865474617, -0.7071067811865474617, 0.000000000000000000 ) ) ;
#260 = ADVANCED_FACE ( 'NONE', ( #58 ), #156, .T. ) ;
#261 = CARTESIAN_POINT ( 'NONE',  ( -6.349999999999998757, -6.349999999999997868, -6.349999999999999645 ) ) ;
#262 = DIRECTION ( 'NONE',  ( -2.220446049250312588E-16, 1.000000000000000000, 0.000000000000000000 ) ) ;
#263 = CC_DESIGN_APPROVAL ( #66, ( #231 ) ) ;
#264 = ORIENTED_EDGE ( 'NONE', *, *, #26, .F. ) ;
#265 = DIRECTION ( 'NONE',  ( 0.000000000000000000, 0.000000000000000000, 1.000000000000000000 ) ) ;
#266 = CARTESIAN_POINT ( 'NONE',  ( 6.349999999999998757, 6.349999999999998757, 6.349999999999999645 ) ) ;
#267 = PLANE ( 'NONE',  #96 ) ;
#268 = DIRECTION ( 'NONE',  ( -6.829619984160658046E-17, 1.000000000000000000, -0.000000000000000000 ) ) ;
#269 = DIRECTION ( 'NONE',  ( 1.000000000000000000, -2.903408047666378392E-16, 0.000000000000000000 ) ) ;
#270 = DATE_AND_TIME ( #218, #147 ) ;
#271 = ADVANCED_FACE ( 'NONE', ( #217 ), #199, .F. ) ;
#272 =( LENGTH_UNIT ( ) NAMED_UNIT ( * ) SI_UNIT ( .MILLI., .METRE. ) );
#273 = CALENDAR_DATE ( 2020, 22, 12 ) ;
#274 = APPROVAL_PERSON_ORGANIZATION ( #175, #66, #27 ) ;
#275 = ORIENTED_EDGE ( 'NONE', *, *, #98, .F. ) ;
#276 = EDGE_CURVE ( 'NONE', #226, #151, #17, .T. ) ;
#277 = CARTESIAN_POINT ( 'NONE',  ( 6.349999999999998757, 6.349999999999998757, 6.349999999999999645 ) ) ;
#278 = CARTESIAN_POINT ( 'NONE',  ( -6.349999999999998757, -6.349999999999997868, 6.349999999999999645 ) ) ;
#279 = MANIFOLD_SOLID_BREP ( '¾µÏ', #108 ) ;
#280 = CARTESIAN_POINT ( 'NONE',  ( 6.349999999999996980, 6.349999999999996980, 6.349999999999999645 ) ) ;
#281 = VECTOR ( 'NONE', #269, 1000.000000000000000 ) ;
#282 = EDGE_CURVE ( 'NONE', #131, #85, #77, .T. ) ;
#283 = DIRECTION ( 'NONE',  ( -0.7071067811865475727, 0.7071067811865475727, 0.000000000000000000 ) ) ;
#284 = DIRECTION ( 'NONE',  ( 0.000000000000000000, 0.000000000000000000, -1.000000000000000000 ) ) ;
#285 = VECTOR ( 'NONE', #262, 1000.000000000000000 ) ;
#286 = LINE ( 'NONE', #166, #42 ) ;
#287 = APPROVAL_PERSON_ORGANIZATION ( #292, #113, #142 ) ;
#288 = DIRECTION ( 'NONE',  ( -0.000000000000000000, 0.000000000000000000, 1.000000000000000000 ) ) ;
#289 = ADVANCED_FACE ( 'NONE', ( #146 ), #219, .F. ) ;
#290 = DIRECTION ( 'NONE',  ( -2.220446049250312588E-16, 1.000000000000000000, 0.000000000000000000 ) ) ;
#291 = DIRECTION ( 'NONE',  ( 1.000000000000000000, 0.000000000000000000, 0.000000000000000000 ) ) ;
#292 = PERSON_AND_ORGANIZATION ( #169, #97 ) ;
#293 = EDGE_CURVE ( 'NONE', #238, #111, #95, .T. ) ;
#294 = AXIS2_PLACEMENT_3D ( 'NONE', #47, #244, #171 ) ;
#295 =( NAMED_UNIT ( * ) PLANE_ANGLE_UNIT ( ) SI_UNIT ( $, .RADIAN. ) );
#296 = DIRECTION ( 'NONE',  ( -1.000000000000000000, 2.903408047666378392E-16, 0.000000000000000000 ) ) ;
#297 = CARTESIAN_POINT ( 'NONE',  ( -6.349999999999999645, -6.350000000000000533, -6.349999999999999645 ) ) ;
#298 = EDGE_CURVE ( 'NONE', #211, #237, #120, .T. ) ;
#299 = VECTOR ( 'NONE', #209, 999.9999999999998863 ) ;
#300 = PERSON_AND_ORGANIZATION ( #169, #97 ) ;
#301 = PRODUCT_DEFINITION_SHAPE ( 'NONE', 'NONE',  #231 ) ;
#302 = ORIENTED_EDGE ( 'NONE', *, *, #212, .T. ) ;
#303 = ADVANCED_FACE ( 'NONE', ( #1 ), #20, .F. ) ;
#304 = ORIENTED_EDGE ( 'NONE', *, *, #317, .T. ) ;
#305 = LOCAL_TIME ( 10, 10, 33.00000000000000000, #116 ) ;
#306 = DIRECTION ( 'NONE',  ( 1.000000000000000000, -2.903408047666378392E-16, 0.000000000000000000 ) ) ;
#307 = DIRECTION ( 'NONE',  ( -1.000000000000000000, -6.829619984160658046E-17, 0.000000000000000000 ) ) ;
#308 = ORIENTED_EDGE ( 'NONE', *, *, #43, .F. ) ;
#309 = LINE ( 'NONE', #132, #53 ) ;
#310 = CARTESIAN_POINT ( 'NONE',  ( 0.000000000000000000, 0.000000000000000000, 6.349999999999999645 ) ) ;
#311 = LINE ( 'NONE', #216, #215 ) ;
#312 = FACE_OUTER_BOUND ( 'NONE', #182, .T. ) ;
#313 = ORIENTED_EDGE ( 'NONE', *, *, #138, .F. ) ;
#314 = APPROVAL ( #251, 'UNSPECIFIED' ) ;
#315 = ORIENTED_EDGE ( 'NONE', *, *, #293, .T. ) ;
#316 = CARTESIAN_POINT ( 'NONE',  ( -6.350000000000002309, 6.350000000000001421, 6.349999999999999645 ) ) ;
#317 = EDGE_CURVE ( 'NONE', #85, #178, #70, .T. ) ;
#318 = CARTESIAN_POINT ( 'NONE',  ( -6.349999999999999645, -6.350000000000000533, 6.349999999999999645 ) ) ;
#319 = VECTOR ( 'NONE', #306, 1000.000000000000000 ) ;
#320 = LOCAL_TIME ( 10, 10, 33.00000000000000000, #201 ) ;
#321 = DIRECTION ( 'NONE',  ( 0.000000000000000000, 0.000000000000000000, 1.000000000000000000 ) ) ;
ENDSEC;
END-ISO-10303-21;
